CAPO 3
 
Time is 6/8, except where chord is marked * - that bar is 3/8
 
Intro
|D      |           |         |        |
 
Verse 1 & 2
|D      |Am*        |D        |        |        |Am*        |C        |   
|Am     |Em  D      |C        |C*      |Am      |D*         |G        |   
 
Some of them standing, some are waiting in line
As if there was something that they thought they might find
Taking some strength from the feeling that always were shared
And in the background the eyes that just stared
 
What was it brought you out here in the dark?
Was it your only way of making your mark?
Did you get rid of all the voices in your head?
Do you now miss them and the things that they said?
 
FRETLESS BASS SOLO: (played by Dave)
G 9*--7-5-4------------7-5-----12-10-9-7---9--10-9-7-9--7--------
D ----------5--7-----7-----5------------------------------10-7---
A -----------7-----8--------7---------------------------------10-
E ---------------------------------------------------------------
  *First note fades in by backwards echo effect
 
G 14-10-12-12-10-------10-----------16---------19--------
D ---------------12-10---12---14-14-----14-14------17-17-
A -------------------------------------------------------
E -------------------------------------------------------
 
G ------10-14--10-----------12--10-9-7----------
D ---10----------10------10--------------10-7---
A 12------------------10---------------------10-
E ----------------------------------------------
 
 
|C#m    |        |F#m     |        |E        |        |C#m        |E
|       |D       |        |E       |F#m      |E       |F#m        |E/G#
|       |E       |        |        |
 
VERSE 3 & 4:
G                             Dm           G
   on your own admission you raised up the knife
G                             Dm           F         (C/E)  Dm
and you brought it down ending another man's life
Dm                            Am     G      F
and when is was done you just threw down the blade
Dm                                      G          C
while the red blood spread wider like the anger you made
 
I don't want this anger burning in me
It's something from which I've tried so hard to be free
and none of the tears that we cry in sorrow or rage
can make any difference or turn back the page
 
 
GUITAR SOLO:
(Solo tab played without capo, chords showed with capo on 3rd)
| E             |Bm*        |E                       
E----B--------P-|-----------|-------------|---------|
B-10(12)----10-8|--B-----P--|-------------|---------|
G---------------|9(10)--9-7-|-------------|12-------|
D---------------|-----------|----------10-|---------|
A---------------|-----------|10-----10----|---------|
E---------------|-----------|-------------|---------|
 
|                 Bm*        D                    Bm
E---B-------8-10-|10-----8-7|-8--------|-B-------|---------------|
B-10(12)---10-12-|12----10-8|10-------8|8(10)----|-H-------------|
G----------------|----------|-------5--|---------|5-7------------|
D----------------|----------|----------|---------|---------------|
A----------------|----------|----------|---------|---------------|
E----------------|----------|----------|---------|---------------|
 
|F#m      E        D         D*      Bm       E*     A
E-----------------|---------|-------|--------|7-----|12----|-----|
B-----------------|---------|-------|13------|8-----|13----|-----|
G-9-------7-------|---------|-------|10------|7-----|12----|-----|
D-----------------|7--------|-------|12------|------|------|-----|
A---10------10----|---------|-------|--------|------|------|-----|
E-----------------|---------|-------|--------|------|------|-----|